  0
SECTION
  2
HEADER
  9
$ACADVER
  1
AC1015
  9
$ACADMAINTVER
 70
     6
  9
$DWGCODEPAGE
  3
ANSI_1252
  9
$INSBASE
 10
-15.43578770281271
 20
-59.27721603551738
 30
0.0
  9
$EXTMIN
 10
-233.2200411489478
 20
-76.32623099399552
 30
-0.0000000000001011
  9
$EXTMAX
 10
293.6832630594809
 20
62.14495816466592
 30
0.0000000000000058
  9
$LIMMIN
 10
0.0
 20
0.0
  9
$LIMMAX
 10
12.0
 20
9.0
  9
$ORTHOMODE
 70
     1
  9
$REGENMODE
 70
     1
  9
$FILLMODE
 70
     1
  9
$QTEXTMODE
 70
     0
  9
$MIRRTEXT
 70
     0
  9
$LTSCALE
 40
1.0
  9
$ATTMODE
 70
     1
  9
$TEXTSIZE
 40
0.2
  9
$TRACEWID
 40
0.05
  9
$TEXTSTYLE
  7
Standard
  9
$CLAYER
  8
0
  9
$CELTYPE
  6
ByLayer
  9
$CECOLOR
 62
   256
  9
$CELTSCALE
 40
1.0
  9
$DISPSILH
 70
     0
  9
$DIMSCALE
 40
1.0
  9
$DIMASZ
 40
0.18
  9
$DIMEXO
 40
0.0625
  9
$DIMDLI
 40
0.38
  9
$DIMRND
 40
0.0
  9
$DIMDLE
 40
0.0
  9
$DIMEXE
 40
0.18
  9
$DIMTP
 40
0.0
  9
$DIMTM
 40
0.0
  9
$DIMTXT
 40
0.18
  9
$DIMCEN
 40
0.09
  9
$DIMTSZ
 40
0.0
  9
$DIMTOL
 70
     0
  9
$DIMLIM
 70
     0
  9
$DIMTIH
 70
     1
  9
$DIMTOH
 70
     1
  9
$DIMSE1
 70
     0
  9
$DIMSE2
 70
     0
  9
$DIMTAD
 70
     0
  9
$DIMZIN
 70
     0
  9
$DIMBLK
  1

  9
$DIMASO
 70
     1
  9
$DIMSHO
 70
     1
  9
$DIMPOST
  1

  9
$DIMAPOST
  1

  9
$DIMALT
 70
     0
  9
$DIMALTD
 70
     2
  9
$DIMALTF
 40
25.4
  9
$DIMLFAC
 40
1.0
  9
$DIMTOFL
 70
     0
  9
$DIMTVP
 40
0.0
  9
$DIMTIX
 70
     0
  9
$DIMSOXD
 70
     0
  9
$DIMSAH
 70
     0
  9
$DIMBLK1
  1

  9
$DIMBLK2
  1

  9
$DIMSTYLE
  2
Standard
  9
$DIMCLRD
 70
     0
  9
$DIMCLRE
 70
     0
  9
$DIMCLRT
 70
     0
  9
$DIMTFAC
 40
1.0
  9
$DIMGAP
 40
0.09
  9
$DIMJUST
 70
     0
  9
$DIMSD1
 70
     0
  9
$DIMSD2
 70
     0
  9
$DIMTOLJ
 70
     1
  9
$DIMTZIN
 70
     0
  9
$DIMALTZ
 70
     0
  9
$DIMALTTZ
 70
     0
  9
$DIMUPT
 70
     0
  9
$DIMDEC
 70
     4
  9
$DIMTDEC
 70
     4
  9
$DIMALTU
 70
     2
  9
$DIMALTTD
 70
     2
  9
$DIMTXSTY
  7
Standard
  9
$DIMAUNIT
 70
     0
  9
$DIMADEC
 70
     0
  9
$DIMALTRND
 40
0.0
  9
$DIMAZIN
 70
     0
  9
$DIMDSEP
 70
    46
  9
$DIMATFIT
 70
     3
  9
$DIMFRAC
 70
     0
  9
$DIMLDRBLK
  1

  9
$DIMLUNIT
 70
     2
  9
$DIMLWD
 70
    -2
  9
$DIMLWE
 70
    -2
  9
$DIMTMOVE
 70
     0
  9
$LUNITS
 70
     2
  9
$LUPREC
 70
     4
  9
$SKETCHINC
 40
0.1
  9
$FILLETRAD
 40
0.125
  9
$AUNITS
 70
     0
  9
$AUPREC
 70
     0
  9
$MENU
  1
.
  9
$ELEVATION
 40
0.0
  9
$PELEVATION
 40
0.0
  9
$THICKNESS
 40
0.0
  9
$LIMCHECK
 70
     0
  9
$CHAMFERA
 40
0.0
  9
$CHAMFERB
 40
0.0
  9
$CHAMFERC
 40
0.0
  9
$CHAMFERD
 40
0.0
  9
$SKPOLY
 70
     0
  9
$TDCREATE
 40
2454608.616975995
  9
$TDUCREATE
 40
2454608.825309329
  9
$TDUPDATE
 40
2454701.387914873
  9
$TDUUPDATE
 40
2454701.596248206
  9
$TDINDWG
 40
1.2294194907
  9
$TDUSRTIMER
 40
1.2294194907
  9
$USRTIMER
 70
     1
  9
$ANGBASE
 50
0.0
  9
$ANGDIR
 70
     0
  9
$PDMODE
 70
     0
  9
$PDSIZE
 40
0.0
  9
$PLINEWID
 40
0.0
  9
$SPLFRAME
 70
     0
  9
$SPLINETYPE
 70
     6
  9
$SPLINESEGS
 70
     8
  9
$HANDSEED
  5
BE
  9
$SURFTAB1
 70
     6
  9
$SURFTAB2
 70
     6
  9
$SURFTYPE
 70
     6
  9
$SURFU
 70
     6
  9
$SURFV
 70
     6
  9
$UCSBASE
  2

  9
$UCSNAME
  2

  9
$UCSORG
 10
0.0
 20
0.0
 30
0.0
  9
$UCSXDIR
 10
1.0
 20
0.0
 30
0.0
  9
$UCSYDIR
 10
0.0
 20
1.0
 30
0.0
  9
$UCSORTHOREF
  2

  9
$UCSORTHOVIEW
 70
     0
  9
$UCSORGTOP
 10
0.0
 20
0.0
 30
0.0
  9
$UCSORGBOTTOM
 10
0.0
 20
0.0
 30
0.0
  9
$UCSORGLEFT
 10
0.0
 20
0.0
 30
0.0
  9
$UCSORGRIGHT
 10
0.0
 20
0.0
 30
0.0
  9
$UCSORGFRONT
 10
0.0
 20
0.0
 30
0.0
  9
$UCSORGBACK
 10
0.0
 20
0.0
 30
0.0
  9
$PUCSBASE
  2

  9
$PUCSNAME
  2

  9
$PUCSORG
 10
0.0
 20
0.0
 30
0.0
  9
$PUCSXDIR
 10
1.0
 20
0.0
 30
0.0
  9
$PUCSYDIR
 10
0.0
 20
1.0
 30
0.0
  9
$PUCSORTHOREF
  2

  9
$PUCSORTHOVIEW
 70
     0
  9
$PUCSORGTOP
 10
0.0
 20
0.0
 30
0.0
  9
$PUCSORGBOTTOM
 10
0.0
 20
0.0
 30
0.0
  9
$PUCSORGLEFT
 10
0.0
 20
0.0
 30
0.0
  9
$PUCSORGRIGHT
 10
0.0
 20
0.0
 30
0.0
  9
$PUCSORGFRONT
 10
0.0
 20
0.0
 30
0.0
  9
$PUCSORGBACK
 10
0.0
 20
0.0
 30
0.0
  9
$USERI1
 70
     0
  9
$USERI2
 70
     0
  9
$USERI3
 70
     0
  9
$USERI4
 70
     0
  9
$USERI5
 70
     0
  9
$USERR1
 40
0.0
  9
$USERR2
 40
0.0
  9
$USERR3
 40
0.0
  9
$USERR4
 40
0.0
  9
$USERR5
 40
0.0
  9
$WORLDVIEW
 70
     1
  9
$SHADEDGE
 70
     3
  9
$SHADEDIF
 70
    70
  9
$TILEMODE
 70
     1
  9
$MAXACTVP
 70
    64
  9
$PINSBASE
 10
0.0
 20
0.0
 30
0.0
  9
$PLIMCHECK
 70
     0
  9
$PEXTMIN
 10
0.0
 20
0.0
 30
0.0
  9
$PEXTMAX
 10
0.0
 20
0.0
 30
0.0
  9
$PLIMMIN
 10
0.0
 20
0.0
  9
$PLIMMAX
 10
12.0
 20
9.0
  9
$UNITMODE
 70
     0
  9
$VISRETAIN
 70
     1
  9
$PLINEGEN
 70
     0
  9
$PSLTSCALE
 70
     1
  9
$TREEDEPTH
 70
  3020
  9
$CMLSTYLE
  2
Standard
  9
$CMLJUST
 70
     0
  9
$CMLSCALE
 40
1.0
  9
$PROXYGRAPHICS
 70
     1
  9
$MEASUREMENT
 70
     0
  9
$CELWEIGHT
370
    -1
  9
$ENDCAPS
280
     0
  9
$JOINSTYLE
280
     0
  9
$LWDISPLAY
290
     0
  9
$INSUNITS
 70
     1
  9
$HYPERLINKBASE
  1

  9
$STYLESHEET
  1

  9
$XEDIT
290
     1
  9
$CEPSNTYPE
380
     0
  9
$PSTYLEMODE
290
     1
  9
$FINGERPRINTGUID
  2
{B650EB87-6C8F-4F65-B2C1-B4636929328F}
  9
$VERSIONGUID
  2
{D55ED2E2-8951-4ED2-8BD6-B521FC071E64}
  9
$EXTNAMES
290
     1
  9
$PSVPSCALE
 40
0.0
  9
$OLESTARTUP
290
     0
  0
ENDSEC
  0
SECTION
  2
CLASSES
  0
CLASS
  1
ACDBDICTIONARYWDFLT
  2
AcDbDictionaryWithDefault
  3
ObjectDBX Classes
 90
        0
280
     0
281
     0
  0
CLASS
  1
ACDBPLACEHOLDER
  2
AcDbPlaceHolder
  3
ObjectDBX Classes
 90
        0
280
     0
281
     0
  0
CLASS
  1
LAYOUT
  2
AcDbLayout
  3
ObjectDBX Classes
 90
        0
280
     0
281
     0
  0
CLASS
  1
DICTIONARYVAR
  2
AcDbDictionaryVar
  3
ObjectDBX Classes
 90
        0
280
     0
281
     0
  0
CLASS
  1
TABLESTYLE
  2
AcDbTableStyle
  3
ObjectDBX Classes
 90
     2047
280
     0
281
     0
  0
CLASS
  1
MATERIAL
  2
AcDbMaterial
  3
ObjectDBX Classes
 90
        0
280
     0
281
     0
  0
CLASS
  1
VISUALSTYLE
  2
AcDbVisualStyle
  3
ObjectDBX Classes
 90
     4095
280
     1
281
     0
  0
CLASS
  1
SCALE
  2
AcDbScale
  3
ObjectDBX Classes
 90
     1153
280
     1
281
     0
  0
CLASS
  1
MLEADERSTYLE
  2
AcDbMLeaderStyle
  3
ACDB_MLEADERSTYLE_CLASS
 90
   -61441
280
     1
281
     0
  0
CLASS
  1
CELLSTYLEMAP
  2
AcDbCellStyleMap
  3
ObjectDBX Classes
 90
     1152
280
     1
281
     0
  0
CLASS
  1
SORTENTSTABLE
  2
AcDbSortentsTable
  3
ObjectDBX Classes
 90
        0
280
     0
281
     0
  0
CLASS
  1
SOLID_BACKGROUND
  2
AcDbSolidBackground
  3
SCENEOE
 90
   -61441
280
     1
281
     0
  0
CLASS
  1
NPOCOLLECTION
  2
AcDbImpNonPersistentObjectsCollection
  3
ObjectDBX Classes
 90
   -64383
280
     1
281
     0
  0
CLASS
  1
ACDB_MTEXTATTRIBUTEOBJECTCONTEXTDATA_CLASS
  2
AcDbMTextAttributeObjectContextData
  3
ObjectDBX Classes
 90
   -64383
280
     1
281
     0
  0
CLASS
  1
DIMASSOC
  2
AcDbDimAssoc
  3
"AcDbDimAssoc|Product Desc:     AcDim ARX App For Dimension|Company:          Autodesk, Inc.|WEB Address:      www.autodesk.com"
 90
        0
280
     0
281
     0
  0
ENDSEC
  0
SECTION
  2
TABLES
  0
TABLE
  2
VPORT
  5
2A
330
0
100
AcDbSymbolTable
 70
     1
  0
VPORT
  5
2B
330
2A
100
AcDbSymbolTableRecord
100
AcDbViewportTableRecord
  2
*Active
 70
     0
 10
0.0
 20
0.0
 11
1.0
 21
1.0
 12
-15.53650870392573
 22
-65.24175489890479
 13
0.0
 23
0.0
 14
0.5
 24
0.5
 15
0.5
 25
0.5
 16
0.0
 26
0.0
 36
1.0
 17
0.0
 27
0.0
 37
0.0
 40
20.5252184448791
 41
2.095454545454545
 42
50.0
 43
0.0
 44
0.0
 50
0.0
 51
0.0
 71
     0
 72
  1000
 73
     1
 74
     2
 75
     0
 76
     0
 77
     0
 78
     0
281
     0
 65
     1
110
0.0
120
0.0
130
0.0
111
1.0
121
0.0
131
0.0
112
0.0
122
1.0
132
0.0
 79
     0
146
0.0
  0
ENDTAB
  0
TABLE
  2
LTYPE
  5
25
330
0
100
AcDbSymbolTable
 70
     2
  0
LTYPE
  5
26
330
25
100
AcDbSymbolTableRecord
100
AcDbLinetypeTableRecord
  2
ByBlock
 70
     0
  3

 72
    65
 73
     0
 40
0.0
  0
LTYPE
  5
27
330
25
100
AcDbSymbolTableRecord
100
AcDbLinetypeTableRecord
  2
ByLayer
 70
     0
  3

 72
    65
 73
     0
 40
0.0
  0
LTYPE
  5
14
330
25
100
AcDbSymbolTableRecord
100
AcDbLinetypeTableRecord
  2
Continuous
 70
     0
  3
Solid line
 72
    65
 73
     0
 40
0.0
  0
LTYPE
  5
9C
330
25
100
AcDbSymbolTableRecord
100
AcDbLinetypeTableRecord
  2
CENTER
 70
     0
  3
____ _ ____ _ ____ _ ____ _ ____ _ ____ _ ____
 72
    65
 73
     4
 40
2.0
 49
1.25
 74
     0
 49
-0.25
 74
     0
 49
0.25
 74
     0
 49
-0.25
 74
     0
  0
ENDTAB
  0
TABLE
  2
LAYER
  5
1D
102
{ACAD_XDICTIONARY
360
1E
102
}
330
0
100
AcDbSymbolTable
 70
     1
  0
LAYER
  5
6
102
{ACAD_XDICTIONARY
360
7
102
}
330
1D
100
AcDbSymbolTableRecord
100
AcDbLayerTableRecord
  2
0
 70
     0
 62
     7
  6
Continuous
370
    -3
390
9
  0
ENDTAB
  0
TABLE
  2
STYLE
  5
22
330
0
100
AcDbSymbolTable
 70
     1
  0
STYLE
  5
23
330
22
100
AcDbSymbolTableRecord
100
AcDbTextStyleTableRecord
  2
Standard
 70
     0
 40
0.0
 41
1.0
 50
0.0
 71
     0
 42
0.2
  3
technic_.ttf
  4

1001
ACAD
1000
Technic
1071
      514
  0
ENDTAB
  0
TABLE
  2
VIEW
  5
28
330
0
100
AcDbSymbolTable
 70
     0
  0
ENDTAB
  0
TABLE
  2
UCS
  5
29
330
0
100
AcDbSymbolTable
 70
     0
  0
ENDTAB
  0
TABLE
  2
APPID
  5
2E
330
0
100
AcDbSymbolTable
 70
     3
  0
APPID
  5
13
330
2E
100
AcDbSymbolTableRecord
100
AcDbRegAppTableRecord
  2
ACAD
 70
     0
  0
APPID
  5
18
330
2E
100
AcDbSymbolTableRecord
100
AcDbRegAppTableRecord
  2
ACAD_PSEXT
 70
     0
  0
APPID
  5
B0
330
2E
100
AcDbSymbolTableRecord
100
AcDbRegAppTableRecord
  2
AcDbAttr
 70
     0
  0
ENDTAB
  0
TABLE
  2
DIMSTYLE
  5
2F
330
0
100
AcDbSymbolTable
 70
     1
100
AcDbDimStyleTable
  0
DIMSTYLE
105
30
330
2F
100
AcDbSymbolTableRecord
100
AcDbDimStyleTableRecord
  2
Standard
 70
     0
340
23
  0
ENDTAB
  0
TABLE
  2
BLOCK_RECORD
  5
1
330
0
100
AcDbSymbolTable
 70
     0
  0
BLOCK_RECORD
  5
2
102
{ACAD_XDICTIONARY
360
3
102
}
330
1
100
AcDbSymbolTableRecord
100
AcDbBlockTableRecord
  2
*Model_Space
340
16
  0
BLOCK_RECORD
  5
19
330
1
100
AcDbSymbolTableRecord
100
AcDbBlockTableRecord
  2
*Paper_Space
340
1C
  0
ENDTAB
  0
ENDSEC
  0
SECTION
  2
BLOCKS
  0
BLOCK
  5
5
330
2
100
AcDbEntity
  8
0
100
AcDbBlockBegin
  2
*Model_Space
 70
     0
 71
     0
 10
0.0
 20
0.0
 30
0.0
  3
*Model_Space
  1

  0
ENDBLK
  5
15
330
2
100
AcDbEntity
  8
0
100
AcDbBlockEnd
  0
BLOCK
  5
1A
330
19
100
AcDbEntity
 67
     1
  8
0
100
AcDbBlockBegin
  2
*Paper_Space
 70
     0
 71
     0
 10
0.0
 20
0.0
 30
0.0
  3
*Paper_Space
  1

  0
ENDBLK
  5
1B
330
19
100
AcDbEntity
 67
     1
  8
0
100
AcDbBlockEnd
  0
ENDSEC
  0
SECTION
  2
ENTITIES
  0
ARC
  5
60
330
2
100
AcDbEntity
  8
0
100
AcDbCircle
 10
-32.18578770281269
 20
-69.47705929386808
 30
-0.0000000000000022
 40
1.0
100
AcDbArc
 50
318.590377890729
 51
0.0
  0
LINE
  5
61
330
2
100
AcDbEntity
  8
0
100
AcDbLine
 10
-31.55419899505577
 20
-70.55011904341581
 30
-0.0000000000000022
 11
-31.132253693498
 21
-73.1234791928772
 31
-0.0000000000000022
  0
ARC
  5
62
330
2
100
AcDbEntity
  8
0
100
AcDbCircle
 10
-31.06078770281269
 20
-70.46921603551738
 30
-0.0000000000000022
 40
0.5
100
AcDbArc
 50
138.5903778907267
 51
189.3117394030574
  0
LINE
  5
63
330
2
100
AcDbEntity
  8
0
100
AcDbLine
 10
-2.181287702812568
 20
-58.03266594054703
 30
-0.0000000000000023
 11
-29.24923760784233
 21
-58.03266594054703
 31
-0.0000000000000023
  0
LINE
  5
64
330
2
100
AcDbEntity
  8
0
100
AcDbLine
 10
-31.18578770281269
 20
-69.47705929386808
 30
-0.0000000000000022
 11
-31.18578770281258
 21
-59.96921603551738
 31
-0.0000000000000022
  0
ARC
  5
65
330
2
100
AcDbEntity
  8
0
100
AcDbCircle
 10
-30.21093894777377
 20
-58.90951446673609
 30
-0.0000000000000023
 40
0.06
100
AcDbArc
 50
271.3596183388307
 51
314.9999999999953
  0
LINE
  5
66
330
2
100
AcDbEntity
  8
0
100
AcDbLine
 10
-30.16851254090258
 20
-58.95194087360728
 30
-0.0000000000000023
 11
-29.24923760784233
 21
-58.03266594054703
 31
-0.0000000000000023
  0
ARC
  5
67
330
2
100
AcDbEntity
  8
0
100
AcDbCircle
 10
-30.18578770281269
 20
-59.96921603551738
 30
-0.0000000000000023
 40
1.0
100
AcDbArc
 50
91.35961833883073
 51
180.0
  0
LINE
  5
68
330
2
100
AcDbEntity
  8
0
100
AcDbLine
 10
-1.556287702812568
 20
-58.65766594054703
 30
-0.0000000000000023
 11
-2.181287702812568
 21
-58.03266594054703
 31
-0.0000000000000023
  0
LINE
  5
69
330
2
100
AcDbEntity
  8
0
100
AcDbLine
 10
-1.431287702812568
 20
-58.65766594054703
 30
-0.0000000000000023
 11
-1.556287702812568
 21
-58.65766594054703
 31
-0.0000000000000023
  0
LINE
  5
6A
330
2
100
AcDbEntity
  8
0
100
AcDbLine
 10
-1.431287702812568
 20
-58.03266594054703
 30
-0.0000000000000023
 11
-1.431287702812568
 21
-58.65766594054703
 31
-0.0000000000000023
  0
LINE
  5
6B
330
2
100
AcDbEntity
  8
0
100
AcDbLine
 10
-1.185787702812576
 20
-58.03266594054703
 30
-0.0000000000000023
 11
-1.431287702812568
 21
-58.03266594054703
 31
-0.0000000000000023
  0
LINE
  5
6C
330
2
100
AcDbEntity
  8
0
100
AcDbLine
 10
-19.97852504173557
 20
-59.27721603551738
 30
-0.0000000000000023
 11
-25.20507662796143
 21
-59.27721603551726
 31
-0.0000000000000023
  0
LINE
  5
6D
330
2
100
AcDbEntity
  8
0
100
AcDbLine
 10
-1.287248349799967
 20
-59.27721603551738
 30
-0.0000000000000023
 11
-16.33586257643859
 21
-59.27721603551738
 31
-0.0000000000000023
  0
LINE
  5
6E
330
2
100
AcDbEntity
  8
0
100
AcDbLine
 10
-3.53108601927056
 20
-60.34083888080188
 30
-0.0000000000000023
 11
-3.06572562090048
 21
-59.69265832592937
 31
-0.0000000000000023
  0
ARC
  5
6F
330
2
100
AcDbEntity
  8
0
100
AcDbCircle
 10
-2.503597597255038
 20
-60.09623741982859
 30
-0.0000000000000023
 40
0.692
100
AcDbArc
 50
90.0
 51
144.3235917781388
  0
LINE
  5
70
330
2
100
AcDbEntity
  8
0
100
AcDbLine
 10
-3.657167147220008
 20
-60.67208427811995
 30
-0.0000000000000023
 11
-4.605383118857816
 21
-69.6937566135982
 31
-0.0000000000000023
  0
ARC
  5
71
330
2
100
AcDbEntity
  8
0
100
AcDbCircle
 10
-2.968957995625118
 20
-60.74441797470121
 30
-0.0000000000000023
 40
0.692
100
AcDbArc
 50
144.3235917781388
 51
173.9999999999999
  0
LINE
  5
72
330
2
100
AcDbEntity
  8
0
100
AcDbLine
 10
-2.503597597255038
 20
-59.40423741982858
 30
-0.0000000000000023
 11
-1.354395131132918
 21
-59.40423741982858
 31
-0.0000000000000023
  0
LINE
  5
73
330
2
100
AcDbEntity
  8
0
100
AcDbLine
 10
-1.185787702812576
 20
-58.03266594054703
 30
-0.0000000000000023
 11
-1.229471277755494
 21
-59.2835998569164
 31
-0.0000000000000023
  0
ARC
  5
74
330
2
100
AcDbEntity
  8
0
100
AcDbCircle
 10
-1.354395131132918
 20
-59.27923741982858
 30
-0.0000000000000023
 40
0.125
100
AcDbArc
 50
270.0
 51
357.9999999999996
  0
LINE
  5
75
330
2
100
AcDbEntity
  8
0
100
AcDbLine
 10
-29.68578770281269
 20
-67.92340175300694
 30
-0.0000000000000023
 11
-28.57191700569473
 21
-67.92340175300689
 31
-0.0000000000000023
  0
LINE
  5
76
330
2
100
AcDbEntity
  8
0
100
AcDbLine
 10
-17.87613828113399
 20
-72.86924128179709
 30
0.0000000000000023
 11
-18.04968756339659
 21
-72.69569199953449
 31
0.0000000000000023
  0
LINE
  5
77
330
2
100
AcDbEntity
  8
0
100
AcDbLine
 10
-12.99543712449142
 20
-72.8692412817972
 30
0.0000000000000023
 11
-12.82898213067139
 21
-72.70278628797718
 31
0.0000000000000023
  0
ARC
  5
78
330
2
100
AcDbEntity
  8
0
100
AcDbCircle
 10
-12.64188373389814
 20
-73.22279467239048
 30
0.0000000000000023
 40
0.5
100
AcDbArc
 50
135.0000000000012
 51
169.4535902998659
  0
ARC
  5
79
330
2
100
AcDbEntity
  8
0
100
AcDbCircle
 10
-18.22969167172727
 20
-73.22279467239036
 30
0.0000000000000023
 40
0.5
100
AcDbArc
 50
10.5464097001308
 51
44.99999999999995
  0
ARC
  5
7A
330
2
100
AcDbEntity
  8
0
100
AcDbCircle
 10
-15.30661991603424
 20
37.84052612711947
 30
-0.0000000000000023
 40
110.433
100
AcDbArc
 50
265.7028383592346
 51
268.4004185771181
  0
ARC
  5
7B
330
2
100
AcDbEntity
  8
0
100
AcDbCircle
 10
-18.40324095398987
 20
-73.04924539012774
 30
-0.0000000000000023
 40
0.5
100
AcDbArc
 50
44.99999999999995
 51
88.40041857711809
  0
ARC
  5
7C
330
2
100
AcDbEntity
  8
0
100
AcDbCircle
 10
-23.36242177047404
 20
-69.36924115404761
 30
-0.0000000000000023
 40
2.921
100
AcDbArc
 50
186.2976844699959
 51
265.7028383592314
  0
ARC
  5
7D
330
2
100
AcDbEntity
  8
0
100
AcDbCircle
 10
-7.510381575228536
 20
-69.38842897239343
 30
-0.0000000000000023
 40
2.921
100
AcDbArc
 50
274.1584564067603
 51
354.0000000000015
  0
LINE
  5
7E
330
2
100
AcDbEntity
  8
0
100
AcDbLine
 10
-29.68578770281269
 20
-63.88407473503646
 30
-0.0000000000000023
 11
-29.68578770281269
 21
-68.3903759854463
 31
-0.0000000000000023
  0
LINE
  5
7F
330
2
100
AcDbEntity
  8
0
100
AcDbLine
 10
-25.38443074543889
 20
-59.35305490166736
 30
-0.0000000000000023
 11
-29.61514182029015
 21
-63.70991360118655
 31
-0.0000000000000023
  0
ARC
  5
80
330
2
100
AcDbEntity
  8
0
100
AcDbCircle
 10
-25.20507662796143
 20
-59.52721603551726
 30
-0.0000000000000023
 40
0.25
100
AcDbArc
 50
89.99999999999675
 51
135.8415892822197
  0
ARC
  5
81
330
2
100
AcDbEntity
  8
0
100
AcDbCircle
 10
-29.43578770281269
 20
-63.88407473503646
 30
-0.0000000000000023
 40
0.25
100
AcDbArc
 50
135.8415892822197
 51
180.0
  0
LINE
  5
82
330
2
100
AcDbEntity
  8
0
100
AcDbLine
 10
-27.16957664208977
 20
-61.19142870978846
 30
-0.0000000000000023
 11
-26.65121046077394
 21
-66.12335347957031
 31
-0.0000000000000023
  0
LINE
  5
83
330
2
100
AcDbEntity
  8
0
100
AcDbLine
 10
-26.36057100297936
 20
-68.83086628183094
 30
-0.0000000000000023
 11
-26.26579467292459
 21
-69.68965774118982
 31
-0.0000000000000023
  0
ARC
  5
84
330
2
100
AcDbEntity
  8
0
100
AcDbCircle
 10
-12.99178770281267
 20
-59.52721603551738
 30
-0.0000000000000022
 40
0.25
100
AcDbArc
 50
0.0
 51
90.0
  0
LINE
  5
85
330
2
100
AcDbEntity
  8
0
100
AcDbLine
 10
-19.8075708031912
 20
-59.70962943503537
 30
-0.0000000000000022
 11
-29.26483346426832
 21
-68.57278938496432
 31
-0.0000000000000022
  0
ARC
  5
86
330
2
100
AcDbEntity
  8
0
100
AcDbCircle
 10
-19.97852504173557
 20
-59.52721603551738
 30
-0.0000000000000022
 40
0.25
100
AcDbArc
 50
313.1426381834492
 51
89.99999999999675
  0
ARC
  5
87
330
2
100
AcDbEntity
  8
0
100
AcDbCircle
 10
-29.43578770281269
 20
-68.3903759854463
 30
-0.0000000000000022
 40
0.25
100
AcDbArc
 50
180.0
 51
313.1426381834492
  0
ARC
  5
88
330
2
100
AcDbEntity
  8
0
100
AcDbCircle
 10
-31.07008387067538
 20
-73.11328541388201
 30
-0.0000000000000022
 40
0.063
100
AcDbArc
 50
189.3117394030607
 51
312.8477191421727
  0
ARC
  5
89
330
2
100
AcDbEntity
  8
0
100
AcDbCircle
 10
-13.38539983917991
 20
-59.52724420114493
 30
-0.0000000000000023
 40
0.25
100
AcDbArc
 50
0.0
 51
90.0
  0
ARC
  5
8A
330
2
100
AcDbEntity
  8
0
100
AcDbCircle
 10
-14.87978770281265
 20
-63.78363494735277
 30
-0.0000000000000022
 40
3.5
100
AcDbArc
 50
180.0
 51
187.1250163489014
  0
LINE
  5
8B
330
2
100
AcDbEntity
  8
0
100
AcDbLine
 10
-18.3527602713105
 20
-64.21775651841497
 30
-0.0000000000000022
 11
-18.16453725760115
 21
-65.72354062808981
 31
-0.0000000000000022
  0
ARC
  5
8C
330
2
100
AcDbEntity
  8
0
100
AcDbCircle
 10
-22.62978770281268
 20
-66.28169693374122
 30
-0.0000000000000022
 40
4.5
100
AcDbArc
 50
0.0
 51
7.125016348901418
  0
LINE
  5
8D
330
2
100
AcDbEntity
  8
0
100
AcDbLine
 10
-18.12978770281265
 20
-72.4084850789319
 30
-0.0000000000000022
 11
-18.12978770281268
 21
-66.28169693374119
 31
-0.0000000000000022
  0
LINE
  5
8E
330
2
100
AcDbEntity
  8
0
100
AcDbLine
 10
-18.37978770281265
 20
-63.78363494735277
 30
-0.0000000000000022
 11
-18.37978770281268
 21
-61.12673103028306
 31
-0.0000000000000022
  0
LINE
  5
8F
330
2
100
AcDbEntity
  8
0
100
AcDbLine
 10
-13.13539983917991
 20
-59.52724420114493
 30
-0.0000000000000023
 11
-13.13539983917988
 21
-73.0974804943711
 31
-0.0000000000000023
  0
LINE
  5
90
330
2
100
AcDbEntity
  8
0
100
AcDbLine
 10
-17.73617556644547
 20
-60.51440063057923
 30
-0.0000000000000023
 11
-17.7361755664455
 21
-73.08263372292629
 31
-0.0000000000000023
  0
ARC
  5
91
330
2
100
AcDbEntity
  8
0
100
AcDbCircle
 10
-17.62978770281265
 20
-72.4084850789319
 30
-0.0000000000000022
 40
0.5
100
AcDbArc
 50
180.0
 51
224.9999999999988
  0
LINE
  5
92
330
2
100
AcDbEntity
  8
0
100
AcDbLine
 10
-14.07967768318054
 20
-73.91761051259306
 30
-0.0000000000000043
 11
-16.79189772244476
 21
-73.917610512593
 31
-0.0000000000000043
  0
ARC
  5
93
330
2
100
AcDbEntity
  8
0
100
AcDbCircle
 10
-14.07967768318051
 20
-72.95511051259302
 30
0.0000000000000023
 40
0.9625
100
AcDbArc
 50
269.9999999999968
 51
349.4535902998659
  0
ARC
  5
94
330
2
100
AcDbEntity
  8
0
100
AcDbCircle
 10
-16.79189772244476
 20
-72.955110512593
 30
0.0000000000000023
 40
0.9625
100
AcDbArc
 50
190.5464097001308
 51
269.9999999999968
  0
ARC
  5
95
330
2
100
AcDbEntity
  8
0
100
AcDbCircle
 10
-12.46833445163549
 20
-73.04924539012774
 30
-0.0000000000000023
 40
0.5
100
AcDbArc
 50
91.59958142288191
 51
135.0000000000012
  0
ARC
  5
96
330
2
100
AcDbEntity
  8
0
100
AcDbCircle
 10
-15.39909823451092
 20
42.85614495836064
 30
-0.0000000000000023
 40
115.4424395689981
100
AcDbArc
 50
271.4478080653257
 51
274.0237202370757
  0
ARC
  5
97
330
2
100
AcDbEntity
  8
0
100
AcDbCircle
 10
-13.24178770281273
 20
-72.4084850789319
 30
-0.0000000000000022
 40
0.5
100
AcDbArc
 50
314.9999999999999
 51
0.0
  0
LINE
  5
98
330
2
100
AcDbEntity
  8
0
100
AcDbLine
 10
-12.74178770281273
 20
-72.4084850789319
 30
-0.0000000000000022
 11
-12.74178770281267
 21
-59.52721603551738
 31
-0.0000000000000022
  0
LINE
  5
99
330
2
100
AcDbEntity
  8
0
100
AcDbLine
 10
-16.50818285615648
 20
-59.3460925384278
 30
-0.0000000000000023
 11
-31.02724058459714
 21
-73.15947472907524
 31
-0.0000000000000022
  0
ARC
  5
9A
330
2
100
AcDbEntity
  8
0
100
AcDbCircle
 10
-16.33586257643859
 20
-59.52721603551738
 30
-0.0000000000000023
 40
0.25
100
AcDbArc
 50
90.0
 51
133.5732301054132
  0
LINE
  5
9B
330
2
100
AcDbEntity
  8
0
  6
CENTER
100
AcDbLine
 10
-15.43578770281271
 20
-57.46002107623092
 30
0.0
 11
-15.4357877028127
 21
-73.82222190794809
 31
0.0
  0
ATTDEF
  5
9D
330
2
100
AcDbEntity
  8
0
100
AcDbText
 10
-15.43578770281271
 20
-59.77721603551738
 30
-0.0000000000000023
 40
0.5
  1
AMERICAN STANDARD
 11
-15.43578770281271
 21
-59.27721603551738
 31
-0.0000000000000023
100
AcDbAttributeDefinition
  3

  2
BRAND
 70
     9
 74
     3
1001
AcDbAttr
1070
     0
1070
     1
  0
ATTDEF
  5
9E
330
2
100
AcDbEntity
  8
0
100
AcDbText
 10
-15.43578770281271
 20
-60.61054936885069
 30
-0.0000000000000023
 40
0.5
  1
2391 ICH
 11
-15.43578770281271
 21
-60.11054936885069
 31
-0.0000000000000023
100
AcDbAttributeDefinition
  3

  2
FIXTURE-NUMBER
 70
     9
 74
     3
1001
AcDbAttr
1070
     0
1070
     1
  0
ATTDEF
  5
9F
330
2
100
AcDbEntity
  8
0
100
AcDbText
 10
-15.43578770281271
 20
-61.44388270218403
 30
-0.0000000000000023
 40
0.5
  1
PRINCETON ICH 5X30 RHO
 11
-15.43578770281271
 21
-60.94388270218403
 31
-0.0000000000000023
100
AcDbAttributeDefinition
  3

  2
PRODUCT-NAME
 70
     9
 74
     3
1001
AcDbAttr
1070
     0
1070
     1
  0
ATTDEF
  5
A0
330
2
100
AcDbEntity
  8
0
100
AcDbText
 10
-15.43578770281271
 20
-62.27721603551738
 30
-0.0000000000000023
 40
0.5
  1
EN. STEEL w/AMERICAST & INTEGRAL O'FLOW
 11
-15.43578770281271
 21
-61.77721603551738
 31
-0.0000000000000023
100
AcDbAttributeDefinition
  3

  2
MATERIAL
 70
     9
 74
     3
1001
AcDbAttr
1070
     0
1070
     1
  0
ENDSEC
  0
SECTION
  2
OBJECTS
  0
DICTIONARY
  5
B
330
0
100
AcDbDictionary
281
     1
  3
ACAD_COLOR
350
37
  3
ACAD_GROUP
350
32
  3
ACAD_LAYOUT
350
17
  3
ACAD_MATERIAL
350
D
  3
ACAD_MLINESTYLE
350
33
  3
ACAD_PLOTSETTINGS
350
34
  3
ACAD_PLOTSTYLENAME
350
A
  3
ACAD_SCALELIST
350
38
  3
ACAD_TABLESTYLE
350
39
  3
ACAD_VISUALSTYLE
350
2D
  3
ACDB_RECOMPOSE_DATA
350
A4
  3
ACDBHEADERROUNDTRIPXREC
350
BB
  3
AcDbVariableDictionary
350
B1
  0
DICTIONARY
  5
1E
330
1D
100
AcDbDictionary
280
     1
281
     1
  3
ACAD_LAYERFILTERS
360
1F
  3
ACAD_LAYERSTATES
360
20
  3
ACLYDICTIONARY
360
21
  0
DICTIONARY
  5
7
330
6
100
AcDbDictionary
280
     1
281
     1
  3
ACAD_XREC_ROUNDTRIP
360
A5
  3
ADSK_XREC_LAYER_RECONCILED
360
8
  0
DICTIONARY
  5
3
330
2
100
AcDbDictionary
280
     1
281
     1
  3
ACAD_SORTENTS
360
A1
  0
DICTIONARY
  5
37
102
{ACAD_REACTORS
330
B
102
}
330
B
100
AcDbDictionary
281
     1
  0
DICTIONARY
  5
32
102
{ACAD_REACTORS
330
B
102
}
330
B
100
AcDbDictionary
281
     1
  0
DICTIONARY
  5
17
102
{ACAD_REACTORS
330
B
102
}
330
B
100
AcDbDictionary
281
     1
  3
Layout1
350
1C
  3
Model
350
16
  0
DICTIONARY
  5
D
102
{ACAD_REACTORS
330
B
102
}
330
B
100
AcDbDictionary
281
     1
  3
ByBlock
350
36
  3
ByLayer
350
35
  3
Global
350
C
  0
DICTIONARY
  5
33
102
{ACAD_REACTORS
330
B
102
}
330
B
100
AcDbDictionary
281
     1
  3
Standard
350
3A
  0
DICTIONARY
  5
34
102
{ACAD_REACTORS
330
B
102
}
330
B
100
AcDbDictionary
281
     1
  0
ACDBDICTIONARYWDFLT
  5
A
102
{ACAD_REACTORS
330
B
102
}
330
B
100
AcDbDictionary
281
     1
  3
Normal
350
9
100
AcDbDictionaryWithDefault
340
9
  0
DICTIONARY
  5
38
102
{ACAD_REACTORS
330
B
102
}
330
B
100
AcDbDictionary
281
     1
  3
A0
350
3F
  3
A1
350
40
  3
A2
350
41
  3
A3
350
42
  3
A4
350
43
  3
A5
350
44
  3
A6
350
45
  3
A7
350
46
  3
A8
350
47
  3
A9
350
48
  3
B0
350
49
  3
B1
350
4A
  3
B2
350
4B
  3
B3
350
4C
  3
B4
350
4D
  3
B5
350
4E
  3
B6
350
4F
  3
B7
350
50
  3
B8
350
51
  3
B9
350
52
  3
C0
350
53
  3
C1
350
54
  3
C2
350
55
  3
C3
350
56
  3
C4
350
57
  3
C5
350
58
  3
C6
350
59
  3
C7
350
5A
  3
C8
350
5B
  3
C9
350
5C
  3
D0
350
5D
  3
D1
350
5E
  3
D2
350
5F
  0
DICTIONARY
  5
39
102
{ACAD_REACTORS
330
B
102
}
330
B
100
AcDbDictionary
281
     1
  3
Standard
350
3B
  0
DICTIONARY
  5
2D
102
{ACAD_REACTORS
330
B
102
}
330
B
100
AcDbDictionary
281
     1
  3
2dWireframe
350
2C
  3
3dWireframe
350
3E
  3
Realistic
350
3D
  0
XRECORD
  5
A4
102
{ACAD_REACTORS
330
B
102
}
330
B
100
AcDbXrecord
280
     1
 90
        1
330
3B
  0
DICTIONARY
  5
BB
102
{ACAD_REACTORS
330
B
102
}
330
B
100
AcDbDictionary
281
     1
  3
COLORDICT
350
BC
  3
MATERIALDICT
350
BD
  0
DICTIONARY
  5
B1
102
{ACAD_REACTORS
330
B
102
}
330
B
100
AcDbDictionary
281
     1
  3
CANNOSCALE
350
B5
  3
CMLEADERSTYLE
350
B3
  3
CTABLESTYLE
350
B2
  3
DIMASSOC
350
BA
  3
HIDETEXT
350
B9
  3
LIGHTINGUNITS
350
B6
  3
MSLTSCALE
350
B4
  0
DICTIONARY
  5
1F
102
{ACAD_REACTORS
330
1E
102
}
330
1E
100
AcDbDictionary
281
     1
  0
DICTIONARY
  5
20
102
{ACAD_REACTORS
330
1E
102
}
330
1E
100
AcDbDictionary
281
     1
  0
DICTIONARY
  5
21
102
{ACAD_REACTORS
330
1E
102
}
330
1E
100
AcDbDictionary
281
     1
1001
ACAD
1000
<All
  0
XRECORD
  5
A5
102
{ACAD_REACTORS
330
7
102
}
330
7
100
AcDbXrecord
280
     1
102
MATERIAL
340
C
  0
XRECORD
  5
8
102
{ACAD_REACTORS
330
7
102
}
330
7
100
AcDbXrecord
280
     1
290
     1
  0
SORTENTSTABLE
  5
A1
102
{ACAD_REACTORS
330
3
102
}
330
3
100
AcDbSortentsTable
330
2
331
9B
  5
A0
331
9D
  5
9B
331
9E
  5
9F
331
9F
  5
9E
331
A0
  5
9D
  0
LAYOUT
  5
1C
102
{ACAD_REACTORS
330
17
102
}
330
17
100
AcDbPlotSettings
  1

  2
None
  4

  6

 40
0.0
 41
0.0
 42
0.0
 43
0.0
 44
0.0
 45
0.0
 46
0.0
 47
0.0
 48
0.0
 49
0.0
140
0.0
141
0.0
142
1.0
143
1.0
 70
   688
 72
     0
 73
     0
 74
     5
  7
monochrome.ctb
 75
    16
147
1.0
148
0.0
149
0.0
100
AcDbLayout
  1
Layout1
 70
     1
 71
     1
 10
0.0
 20
0.0
 11
12.0
 21
9.0
 12
0.0
 22
0.0
 32
0.0
 14
0.0
 24
0.0
 34
0.0
 15
0.0
 25
0.0
 35
0.0
146
0.0
 13
0.0
 23
0.0
 33
0.0
 16
1.0
 26
0.0
 36
0.0
 17
0.0
 27
1.0
 37
0.0
 76
     0
330
19
  0
LAYOUT
  5
16
102
{ACAD_REACTORS
330
17
102
}
330
17
100
AcDbPlotSettings
  1

  2
\\sal-ist06-srv\HP LaserJet 5Si Payroll
  4
11x17
  6

 40
7.143749713897705
 41
7.143725872039795
 42
7.143768310546875
 43
7.14373779296875
 44
279.3999938964844
 45
431.7999877929688
 46
6.594433405510236
 47
0.0
 48
-234.8785001004962
 49
-77.53212797782885
140
2.521914054110312
141
65.71332136845103
142
1.0
143
14.4426099124129
 70
 11956
 72
     0
 73
     1
 74
     4
  7
monochrome.ctb
 75
     0
147
0.0692395630751293
148
5965.913902552604
149
1969.316050636853
100
AcDbLayout
  1
Model
 70
     1
 71
     0
 10
0.0
 20
0.0
 11
12.0
 21
9.0
 12
0.0
 22
0.0
 32
0.0
 14
0.0
 24
0.0
 34
0.0
 15
0.0
 25
0.0
 35
0.0
146
0.0
 13
0.0
 23
0.0
 33
0.0
 16
1.0
 26
0.0
 36
0.0
 17
0.0
 27
1.0
 37
0.0
 76
     0
330
2
1001
ACAD_PSEXT
1000
\\sal-ist06-srv\HP LaserJet 5Si Payroll
1000
HP LaserJet 5Si
1000
Human Resources   (Penny Creer, Salem Ohio)
1000
Hewlett Packard LaserJet 5SI for Payroll Printing
1070
     0
  0
MATERIAL
  5
36
102
{ACAD_REACTORS
330
D
102
}
102
{ACAD_XDICTIONARY
360
AD
102
}
330
D
100
AcDbMaterial
  1
ByBlock
 73
     2
 78
     2
172
     2
176
     2
270
     2
273
     0
274
     2
  0
MATERIAL
  5
35
102
{ACAD_REACTORS
330
D
102
}
102
{ACAD_XDICTIONARY
360
AB
102
}
330
D
100
AcDbMaterial
  1
ByLayer
 73
     2
 78
     2
172
     2
176
     2
270
     2
273
     0
274
     2
  0
MATERIAL
  5
C
102
{ACAD_REACTORS
330
D
102
}
102
{ACAD_XDICTIONARY
360
E
102
}
330
D
100
AcDbMaterial
  1
Global
 73
     2
 43
0.0208000000566244
 43
0.0
 43
0.0
 43
0.0
 43
0.0
 43
0.0208000000566244
 43
0.0
 43
0.0
 43
0.0
 43
0.0
 43
1.0
 43
0.0
 43
0.0
 43
0.0
 43
0.0
 43
1.0
 78
     2
172
     2
 49
0.0208000000566244
 49
0.0
 49
0.0
 49
0.0
 49
0.0
 49
0.0208000000566244
 49
0.0
 49
0.0
 49
0.0
 49
0.0
 49
1.0
 49
0.0
 49
0.0
 49
0.0
 49
0.0
 49
1.0
176
     2
142
0.0208000000566244
142
0.0
142
0.0
142
0.0
142
0.0
142
0.0208000000566244
142
0.0
142
0.0
142
0.0
142
0.0
142
1.0
142
0.0
142
0.0
142
0.0
142
0.0
142
1.0
270
     2
144
0.0208000000566244
144
0.0
144
0.0
144
0.0
144
0.0
144
0.0208000000566244
144
0.0
144
0.0
144
0.0
144
0.0
144
1.0
144
0.0
144
0.0
144
0.0
144
0.0
144
1.0
273
     0
274
     2
1001
ACAD
1070
    -1
1070
     3
1070
     0
1000

1071
        0
1070
     0
  0
MLINESTYLE
  5
3A
102
{ACAD_REACTORS
330
33
102
}
330
33
100
AcDbMlineStyle
  2
STANDARD
 70
     0
  3

 62
   256
 51
90.0
 52
90.0
 71
     2
 49
0.5
 62
   256
  6
BYLAYER
 49
-0.5
 62
   256
  6
BYLAYER
  0
ACDBPLACEHOLDER
  5
9
102
{ACAD_REACTORS
330
A
102
}
330
A
  0
ACAD_PROXY_OBJECT
  5
3F
102
{ACAD_REACTORS
330
38
102
}
330
38
100
AcDbProxyObject
 90
      499
 91
      507
 95
   983063
 70
     0
 93
       49
310
904313A3100580
  0
ACAD_PROXY_OBJECT
  5
40
102
{ACAD_REACTORS
330
38
102
}
330
38
100
AcDbProxyObject
 90
      499
 91
      507
 95
   983063
 70
     0
 93
      113
310
904313A32004000000000000004000
  0
ACAD_PROXY_OBJECT
  5
41
102
{ACAD_REACTORS
330
38
102
}
330
38
100
AcDbProxyObject
 90
      499
 91
      507
 95
   983063
 70
     0
 93
      113
310
904313A34004000000000000104000
  0
ACAD_PROXY_OBJECT
  5
42
102
{ACAD_REACTORS
330
38
102
}
330
38
100
AcDbProxyObject
 90
      499
 91
      507
 95
   983063
 70
     0
 93
      113
310
904313A35004000000000000144000
  0
ACAD_PROXY_OBJECT
  5
43
102
{ACAD_REACTORS
330
38
102
}
330
38
100
AcDbProxyObject
 90
      499
 91
      507
 95
   983063
 70
     0
 93
      113
310
904313A38004000000000000204000
  0
ACAD_PROXY_OBJECT
  5
44
102
{ACAD_REACTORS
330
38
102
}
330
38
100
AcDbProxyObject
 90
      499
 91
      507
 95
   983063
 70
     0
 93
      121
310
905313A3130004000000000000244000
  0
ACAD_PROXY_OBJECT
  5
45
102
{ACAD_REACTORS
330
38
102
}
330
38
100
AcDbProxyObject
 90
      499
 91
      507
 95
   983063
 70
     0
 93
      121
310
905313A3136004000000000000304000
  0
ACAD_PROXY_OBJECT
  5
46
102
{ACAD_REACTORS
330
38
102
}
330
38
100
AcDbProxyObject
 90
      499
 91
      507
 95
   983063
 70
     0
 93
      121
310
905313A3230004000000000000344000
  0
ACAD_PROXY_OBJECT
  5
47
102
{ACAD_REACTORS
330
38
102
}
330
38
100
AcDbProxyObject
 90
      499
 91
      507
 95
   983063
 70
     0
 93
      121
310
905313A33300040000000000003E4000
  0
ACAD_PROXY_OBJECT
  5
48
102
{ACAD_REACTORS
330
38
102
}
330
38
100
AcDbProxyObject
 90
      499
 91
      507
 95
   983063
 70
     0
 93
      121
310
905313A3430004000000000000444000
  0
ACAD_PROXY_OBJECT
  5
49
102
{ACAD_REACTORS
330
38
102
}
330
38
100
AcDbProxyObject
 90
      499
 91
      507
 95
   983063
 70
     0
 93
      121
310
905313A3530004000000000000494000
  0
ACAD_PROXY_OBJECT
  5
4A
102
{ACAD_REACTORS
330
38
102
}
330
38
100
AcDbProxyObject
 90
      499
 91
      507
 95
   983063
 70
     0
 93
      129
310
906313A313030004000000000000594000
  0
ACAD_PROXY_OBJECT
  5
4B
102
{ACAD_REACTORS
330
38
102
}
330
38
100
AcDbProxyObject
 90
      499
 91
      507
 95
   983063
 70
     0
 93
      113
310
904323A31000000000000000010100
  0
ACAD_PROXY_OBJECT
  5
4C
102
{ACAD_REACTORS
330
38
102
}
330
38
100
AcDbProxyObject
 90
      499
 91
      507
 95
   983063
 70
     0
 93
      113
310
904343A31000000000000000410100
  0
ACAD_PROXY_OBJECT
  5
4D
102
{ACAD_REACTORS
330
38
102
}
330
38
100
AcDbProxyObject
 90
      499
 91
      507
 95
   983063
 70
     0
 93
      113
310
904383A31000000000000000810100
  0
ACAD_PROXY_OBJECT
  5
4E
102
{ACAD_REACTORS
330
38
102
}
330
38
100
AcDbProxyObject
 90
      499
 91
      507
 95
   983063
 70
     0
 93
      121
310
90531303A31000000000000000910100
  0
ACAD_PROXY_OBJECT
  5
4F
102
{ACAD_REACTORS
330
38
102
}
330
38
100
AcDbProxyObject
 90
      499
 91
      507
 95
   983063
 70
     0
 93
      129
310
9063130303A31000000000000001650100
  0
ACAD_PROXY_OBJECT
  5
50
102
{ACAD_REACTORS
330
38
102
}
330
38
100
AcDbProxyObject
 90
      499
 91
      507
 95
   983063
 70
     0
 93
      265
310
90F312F31323822203D2031272D302200000000000000200FC000000000000284000
  0
ACAD_PROXY_OBJECT
  5
51
102
{ACAD_REACTORS
330
38
102
}
330
38
100
AcDbProxyObject
 90
      499
 91
      507
 95
   983063
 70
     0
 93
      257
310
90E312F363422203D2031272D302200000000000000240FC000000000000284000
  0
ACAD_PROXY_OBJECT
  5
52
102
{ACAD_REACTORS
330
38
102
}
330
38
100
AcDbProxyObject
 90
      499
 91
      507
 95
   983063
 70
     0
 93
      257
310
90E312F333222203D2031272D302200000000000000280FC000000000000284000
  0
ACAD_PROXY_OBJECT
  5
53
102
{ACAD_REACTORS
330
38
102
}
330
38
100
AcDbProxyObject
 90
      499
 91
      507
 95
   983063
 70
     0
 93
      257
310
90E312F313622203D2031272D3022000000000000002C0FC000000000000284000
  0
ACAD_PROXY_OBJECT
  5
54
102
{ACAD_REACTORS
330
38
102
}
330
38
100
AcDbProxyObject
 90
      499
 91
      507
 95
   983063
 70
     0
 93
      257
310
90E332F333222203D2031272D3022000000000000002E0FC000000000000284000
  0
ACAD_PROXY_OBJECT
  5
55
102
{ACAD_REACTORS
330
38
102
}
330
38
100
AcDbProxyObject
 90
      499
 91
      507
 95
   983063
 70
     0
 93
      249
310
90D312F3822203D2031272D302200000000000000300FC000000000000284000
  0
ACAD_PROXY_OBJECT
  5
56
102
{ACAD_REACTORS
330
38
102
}
330
38
100
AcDbProxyObject
 90
      499
 91
      507
 95
   983063
 70
     0
 93
      257
310
90E332F313622203D2031272D302200000000000000320FC000000000000284000
  0
ACAD_PROXY_OBJECT
  5
57
102
{ACAD_REACTORS
330
38
102
}
330
38
100
AcDbProxyObject
 90
      499
 91
      507
 95
   983063
 70
     0
 93
      249
310
90D312F3422203D2031272D302200000000000000340FC000000000000284000
  0
ACAD_PROXY_OBJECT
  5
58
102
{ACAD_REACTORS
330
38
102
}
330
38
100
AcDbProxyObject
 90
      499
 91
      507
 95
   983063
 70
     0
 93
      249
310
90D332F3822203D2031272D302200000000000000360FC000000000000284000
  0
ACAD_PROXY_OBJECT
  5
59
102
{ACAD_REACTORS
330
38
102
}
330
38
100
AcDbProxyObject
 90
      499
 91
      507
 95
   983063
 70
     0
 93
      249
310
90D312F3222203D2031272D302200000000000000380FC000000000000284000
  0
ACAD_PROXY_OBJECT
  5
5A
102
{ACAD_REACTORS
330
38
102
}
330
38
100
AcDbProxyObject
 90
      499
 91
      507
 95
   983063
 70
     0
 93
      249
310
90D332F3422203D2031272D3022000000000000003A0FC000000000000284000
  0
ACAD_PROXY_OBJECT
  5
5B
102
{ACAD_REACTORS
330
38
102
}
330
38
100
AcDbProxyObject
 90
      499
 91
      507
 95
   983063
 70
     0
 93
      169
310
90B3122203D2031272D3022004000000000000284000
  0
ACAD_PROXY_OBJECT
  5
5C
102
{ACAD_REACTORS
330
38
102
}
330
38
100
AcDbProxyObject
 90
      499
 91
      507
 95
   983063
 70
     0
 93
      265
310
90F312D312F3222203D2031272D3022000000000000003E0FC000000000000284000
  0
ACAD_PROXY_OBJECT
  5
5D
102
{ACAD_REACTORS
330
38
102
}
330
38
100
AcDbProxyObject
 90
      499
 91
      507
 95
   983063
 70
     0
 93
      233
310
90B3322203D2031272D30220000000000000002100000000000000284000
  0
ACAD_PROXY_OBJECT
  5
5E
102
{ACAD_REACTORS
330
38
102
}
330
38
100
AcDbProxyObject
 90
      499
 91
      507
 95
   983063
 70
     0
 93
      233
310
90B3622203D2031272D30220000000000000006100000000000000284000
  0
ACAD_PROXY_OBJECT
  5
5F
102
{ACAD_REACTORS
330
38
102
}
330
38
100
AcDbProxyObject
 90
      499
 91
      507
 95
   983063
 70
     0
 93
      257
310
90E31272D3022203D2031272D3022000000000000000A100000000000000284000
  0
TABLESTYLE
  5
3B
102
{ACAD_REACTORS
330
39
102
}
102
{ACAD_XDICTIONARY
360
3C
102
}
330
39
100
AcDbTableStyle
  3
Standard
 70
     0
 71
     0
 40
0.06
 41
0.06
280
     0
281
     0
  7
Standard
140
0.18
170
     2
 62
     0
 63
     7
283
     0
274
    -2
284
     1
 64
     0
275
    -2
285
     1
 65
     0
276
    -2
286
     1
 66
     0
277
    -2
287
     1
 67
     0
278
    -2
288
     1
 68
     0
279
    -2
289
     1
 69
     0
  7
Standard
140
0.25
170
     5
 62
     0
 63
     7
283
     0
274
    -2
284
     1
 64
     0
275
    -2
285
     1
 65
     0
276
    -2
286
     1
 66
     0
277
    -2
287
     1
 67
     0
278
    -2
288
     1
 68
     0
279
    -2
289
     1
 69
     0
  7
Standard
140
0.18
170
     5
 62
     0
 63
     7
283
     0
274
    -2
284
     1
 64
     0
275
    -2
285
     1
 65
     0
276
    -2
286
     1
 66
     0
277
    -2
287
     1
 67
     0
278
    -2
288
     1
 68
     0
279
    -2
289
     1
 69
     0
  0
ACAD_PROXY_OBJECT
  5
2C
102
{ACAD_REACTORS
330
2D
102
}
330
2D
100
AcDbProxyObject
 90
      499
 91
      506
 95
   983063
 70
     0
 93
      452
310
430C9915DA5C99599C985B5940104902404333333333333E3BF0000000000000FB0107901411070040501600405405064090741402480A0340
1001
ACAD
1000
AcDbSavedByObjectVersion
1070
     0
  0
ACAD_PROXY_OBJECT
  5
3E
102
{ACAD_REACTORS
330
2D
102
}
330
2D
100
AcDbProxyObject
 90
      499
 91
      506
 95
   983063
 70
     0
 93
      452
310
430CD915DA5C99599C985B5940105902404333333333333E3BF0000000000000FB0107901411070040501600405405064090741402480A0340
1001
ACAD
1000
AcDbSavedByObjectVersion
1070
     0
  0
ACAD_PROXY_OBJECT
  5
3D
102
{ACAD_REACTORS
330
2D
102
}
330
2D
100
AcDbProxyObject
 90
      499
 91
      506
 95
   983063
 70
     0
 93
      436
310
429499585B1A5CDD1A58C010840902404333333333333E3BF0000000000000FB01079019070040501508421405064090741402480A1B40
1001
ACAD
1000
AcDbSavedByObjectVersion
1070
     0
  0
XRECORD
  5
BC
102
{ACAD_REACTORS
330
BB
102
}
330
BB
100
AcDbXrecord
280
     1
340
37
  0
XRECORD
  5
BD
102
{ACAD_REACTORS
330
BB
102
}
330
BB
100
AcDbXrecord
280
     1
340
D
  0
DICTIONARYVAR
  5
B5
102
{ACAD_REACTORS
330
B1
102
}
330
B1
100
DictionaryVariables
280
     0
  1
1:1
  0
DICTIONARYVAR
  5
B3
102
{ACAD_REACTORS
330
B1
102
}
330
B1
100
DictionaryVariables
280
     0
  1
STANDARD
  0
DICTIONARYVAR
  5
B2
102
{ACAD_REACTORS
330
B1
102
}
330
B1
100
DictionaryVariables
280
     0
  1
STANDARD
  0
DICTIONARYVAR
  5
BA
102
{ACAD_REACTORS
330
B1
102
}
330
B1
100
DictionaryVariables
280
     0
  1
2
  0
DICTIONARYVAR
  5
B9
102
{ACAD_REACTORS
330
B1
102
}
330
B1
100
DictionaryVariables
280
     0
  1
1
  0
DICTIONARYVAR
  5
B6
102
{ACAD_REACTORS
330
B1
102
}
330
B1
100
DictionaryVariables
280
     0
  1
2
  0
DICTIONARYVAR
  5
B4
102
{ACAD_REACTORS
330
B1
102
}
330
B1
100
DictionaryVariables
280
     0
  1
1
  0
DICTIONARY
  5
AD
330
36
100
AcDbDictionary
280
     1
281
     1
  3
ACAD_XREC_ROUNDTRIP
360
AE
  0
DICTIONARY
  5
AB
330
35
100
AcDbDictionary
280
     1
281
     1
  3
ACAD_XREC_ROUNDTRIP
360
AC
  0
DICTIONARY
  5
E
330
C
100
AcDbDictionary
280
     1
281
     1
  3
ACAD_XREC_ROUNDTRIP
360
A6
  3
BUMPTILE
360
F
  3
DIFFUSETILE
360
10
  3
OPACITYTILE
360
11
  3
REFLECTIONTILE
360
12
  0
DICTIONARY
  5
3C
330
3B
100
AcDbDictionary
280
     1
281
     1
  3
ACAD_ROUNDTRIP_2008_TABLESTYLE_CELLSTYLEMAP
360
A3
  3
ACAD_XREC_ROUNDTRIP
360
AF
  0
XRECORD
  5
AE
102
{ACAD_REACTORS
330
AD
102
}
330
AD
100
AcDbXrecord
280
     1
102
MATERIAL
148
0.0
149
0.0
149
0.0
 93
        0
 94
       63
282
     0
 72
     1
 77
     1
171
     1
175
     1
179
     1
273
     0
  0
XRECORD
  5
AC
102
{ACAD_REACTORS
330
AB
102
}
330
AB
100
AcDbXrecord
280
     1
102
MATERIAL
148
0.0
149
0.0
149
0.0
 93
        0
 94
       63
282
     0
 72
     1
 77
     1
171
     1
175
     1
179
     1
273
     0
  0
XRECORD
  5
A6
102
{ACAD_REACTORS
330
E
102
}
330
E
100
AcDbXrecord
280
     1
102
MATERIAL
148
0.0
149
0.0
149
0.0
 93
        0
 94
       63
282
     0
 72
     1
 77
     1
171
     1
175
     1
179
     1
273
     0
  0
XRECORD
  5
F
102
{ACAD_REACTORS
330
E
102
}
330
E
100
AcDbXrecord
280
     1
270
     1
271
     1
  0
XRECORD
  5
10
102
{ACAD_REACTORS
330
E
102
}
330
E
100
AcDbXrecord
280
     1
270
     1
271
     1
  0
XRECORD
  5
11
102
{ACAD_REACTORS
330
E
102
}
330
E
100
AcDbXrecord
280
     1
270
     1
271
     1
  0
XRECORD
  5
12
102
{ACAD_REACTORS
330
E
102
}
330
E
100
AcDbXrecord
280
     1
270
     1
271
     1
  0
ACAD_PROXY_OBJECT
  5
A3
102
{ACAD_REACTORS
330
3C
102
}
330
3C
100
AcDbProxyObject
 90
      499
 91
      509
 95
   983063
 70
     0
 93
     5304
310
40D054060020000020000003200101A000080002A5058000000C100000000000000340FD012E07A17AD46E2B8FCB81E85EB51B8AE3F2E07A17AD46E2B8FCB81E85EB51B8AE3F02B5E8DC0F42B1CFC0AD7A3703D0AC73F419019018000000C1003FBFFFFFE02B5E8DC0F42A9CFD029018000000C1003FBFFFFFE02B5E8DC0F4
310
2A9CFD049018000000C1003FBFFFFFE02B5E8DC0F42A9CFD089018000000C1003FBFFFFFE02B5E8DC0F42A9CFD109018000000C1003FBFFFFFE02B5E8DC0F42A9CFD209018000000C1003FBFFFFFE02B5E8DC0F42A9CFD01405075F5449544C450041501A8000000C800406800020000A9416000000304000AD7A3703D0AC7
310
3F404B81E85EB51B8AE3F2E07A17AD46E2B8FCB81E85EB51B8AE3F2E07A17AD46E2B8FC0AD7A3703D0AC73F02B5E8DC0F42B1CFD0640640600000030400FEFFFFFF80AD7A3703D0AA73F40A40600000030400FEFFFFFF80AD7A3703D0AA73F41240600000030400FEFFFFFF80AD7A3703D0AA73F42240600000030400FEFFF
310
FFF80AD7A3703D0AA73F44240600000030400FEFFFFFF80AD7A3703D0AA73F48240600000030400FEFFFFFF80AD7A3703D0AA73F409014217D2115051115480105406A0000003200101A000080002A5028000000C10002B5E8DC0F42B1CFD012E07A17AD46E2B8FCB81E85EB51B8AE3F2E07A17AD46E2B8FCB81E85EB51B8A
310
E3F02B5E8DC0F42B1CFC0AD7A3703D0AC73F419019018000000C1003FBFFFFFE02B5E8DC0F42A9CFD029018000000C1003FBFFFFFE02B5E8DC0F42A9CFD049018000000C1003FBFFFFFE02B5E8DC0F42A9CFD089018000000C1003FBFFFFFE02B5E8DC0F42A9CFD109018000000C1003FBFFFFFE02B5E8DC0F42A9CFD20901
310
8000000C1003FBFFFFFE02B5E8DC0F42A9CFD03409065F4441544100
340
23
340
0
340
0
340
0
340
0
340
0
340
0
340
23
340
0
340
0
340
0
340
0
340
0
340
0
340
23
340
0
340
0
340
0
340
0
340
0
340
0
 94
        0
  0
XRECORD
  5
AF
102
{ACAD_REACTORS
330
3C
102
}
330
3C
100
AcDbXrecord
280
     1
102
ACAD_ROUNDTRIP_PRE2007_TABLESTYLE
 90
      512
 91
        0
  1

 92
      512
 93
        0
  2

 94
      512
 95
        0
  3

  0
ENDSEC
  0
EOF
